ISO-10303-21;
HEADER;
/* Generated by software containing ST-Developer
 * from STEP Tools, Inc. (www.steptools.com) 
 */

FILE_DESCRIPTION(
/* description */ (''),
/* implementation_level */ '2;1');

FILE_NAME(
/* name */ '',
/* time_stamp */ '2025-07-24T08:38:50+07:00',
/* author */ ('zeta-86'),
/* organization */ (''),
/* preprocessor_version */ 'ST-DEVELOPER v19.2',
/* originating_system */ 'Autodesk Inventor 2024',
/* authorisation */ '');

FILE_SCHEMA (('AUTOMOTIVE_DESIGN { 1 0 10303 214 3 1 1 }'));
ENDSEC;

DATA;
#10=MECHANICAL_DESIGN_GEOMETRIC_PRESENTATION_REPRESENTATION('',(#13),#468);
#11=SHAPE_REPRESENTATION_RELATIONSHIP('SRR','None',#475,#12);
#12=ADVANCED_BREP_SHAPE_REPRESENTATION('',(#14),#467);
#13=STYLED_ITEM('',(#484),#14);
#14=MANIFOLD_SOLID_BREP('\X2\04220432043504400434043E0435\X0\ \X2\04420435043B043E\X0\2',
#221);
#15=TOROIDAL_SURFACE('',#274,7.5,0.75);
#16=(
BOUNDED_CURVE()
B_SPLINE_CURVE(2,(#460,#461,#462),.UNSPECIFIED.,.F.,.F.)
B_SPLINE_CURVE_WITH_KNOTS((3,3),(1.24198688360836,1.31759932502348),
 .UNSPECIFIED.)
CURVE()
GEOMETRIC_REPRESENTATION_ITEM()
RATIONAL_B_SPLINE_CURVE((0.999999999946742,0.997164845516701,0.995756313963192))
REPRESENTATION_ITEM('')
);
#17=(
BOUNDED_SURFACE()
B_SPLINE_SURFACE(2,2,((#433,#434,#435,#436,#437,#438,#439,#440,#441),(#442,
#443,#444,#445,#446,#447,#448,#449,#450),(#451,#452,#453,#454,#455,#456,
#457,#458,#459)),.UNSPECIFIED.,.F.,.T.,.F.)
B_SPLINE_SURFACE_WITH_KNOTS((3,3),(3,2,2,2,3),(1.24198688289818,1.54251893349668),
(-3.14159265358979,-1.5707963267949,0.,1.5707963267949,3.14159265358979),
 .UNSPECIFIED.)
GEOMETRIC_REPRESENTATION_ITEM()
RATIONAL_B_SPLINE_SURFACE(((1.,0.707106781186548,1.,0.707106781186548,1.,
0.707106781186548,1.,0.707106781186548,1.),(0.988731288625205,0.699138598958196,
0.988731288625205,0.699138598958196,0.988731288625205,0.699138598958196,
0.988731288625205,0.699138598958196,0.988731288625205),(1.,0.707106781186548,
1.,0.707106781186548,1.,0.707106781186548,1.,0.707106781186548,1.)))
REPRESENTATION_ITEM('')
SURFACE()
);
#18=CONICAL_SURFACE('',#260,5.75,0.785398163397443);
#19=CONICAL_SURFACE('',#264,7.175,0.785398163397448);
#20=CONICAL_SURFACE('',#270,7.175,0.785398163397447);
#21=B_SPLINE_CURVE_WITH_KNOTS('',3,(#370,#371,#372,#373,#374,#375,#376,
#377,#378,#379),.UNSPECIFIED.,.F.,.F.,(4,2,2,2,4),(-8.94249855989981,-8.82555842990314,
-8.28274049441545,-7.73992255892776,-7.62298242717236),.UNSPECIFIED.);
#22=B_SPLINE_CURVE_WITH_KNOTS('',3,(#384,#385,#386,#387,#388,#389,#390,
#391,#392,#393),.UNSPECIFIED.,.F.,.F.,(4,2,2,2,4),(7.62298242716467,7.7399225587506,
8.2827404944157,8.8255584300808,8.942498559908),.UNSPECIFIED.);
#23=B_SPLINE_CURVE_WITH_KNOTS('',3,(#397,#398,#399,#400),.UNSPECIFIED.,
 .F.,.F.,(4,4),(2.46410404139079,2.53889022545533),.UNSPECIFIED.);
#24=B_SPLINE_CURVE_WITH_KNOTS('',3,(#402,#403,#404,#405),.UNSPECIFIED.,
 .F.,.F.,(4,4),(2.53889022545533,2.61369528880876),.UNSPECIFIED.);
#25=LINE('',#363,#31);
#26=LINE('',#408,#32);
#27=LINE('',#417,#33);
#28=LINE('',#424,#34);
#29=LINE('',#426,#35);
#30=LINE('',#432,#36);
#31=VECTOR('',#294,6.75);
#32=VECTOR('',#313,5.75);
#33=VECTOR('',#324,7.175);
#34=VECTOR('',#333,7.6);
#35=VECTOR('',#336,7.175);
#36=VECTOR('',#343,9.);
#37=CYLINDRICAL_SURFACE('',#249,6.75);
#38=CYLINDRICAL_SURFACE('',#258,40.4101575327171);
#39=CYLINDRICAL_SURFACE('',#267,7.6);
#40=CYLINDRICAL_SURFACE('',#271,9.);
#41=FACE_BOUND('',#58,.T.);
#42=FACE_BOUND('',#66,.T.);
#43=FACE_OUTER_BOUND('',#57,.T.);
#44=FACE_OUTER_BOUND('',#59,.T.);
#45=FACE_OUTER_BOUND('',#60,.T.);
#46=FACE_OUTER_BOUND('',#61,.T.);
#47=FACE_OUTER_BOUND('',#62,.T.);
#48=FACE_OUTER_BOUND('',#63,.T.);
#49=FACE_OUTER_BOUND('',#64,.T.);
#50=FACE_OUTER_BOUND('',#65,.T.);
#51=FACE_OUTER_BOUND('',#67,.T.);
#52=FACE_OUTER_BOUND('',#68,.T.);
#53=FACE_OUTER_BOUND('',#69,.T.);
#54=FACE_OUTER_BOUND('',#70,.T.);
#55=FACE_OUTER_BOUND('',#71,.T.);
#56=FACE_OUTER_BOUND('',#72,.T.);
#57=EDGE_LOOP('',(#142));
#58=EDGE_LOOP('',(#143));
#59=EDGE_LOOP('',(#144));
#60=EDGE_LOOP('',(#145,#146,#147,#148,#149,#150));
#61=EDGE_LOOP('',(#151,#152));
#62=EDGE_LOOP('',(#153,#154));
#63=EDGE_LOOP('',(#155,#156,#157,#158,#159));
#64=EDGE_LOOP('',(#160,#161,#162,#163));
#65=EDGE_LOOP('',(#164));
#66=EDGE_LOOP('',(#165));
#67=EDGE_LOOP('',(#166,#167,#168,#169,#170));
#68=EDGE_LOOP('',(#171,#172,#173,#174,#175,#176));
#69=EDGE_LOOP('',(#177,#178,#179,#180,#181,#182));
#70=EDGE_LOOP('',(#183,#184,#185,#186,#187));
#71=EDGE_LOOP('',(#188,#189,#190,#191,#192,#193,#194,#195,#196));
#72=EDGE_LOOP('',(#197,#198,#199,#200,#201));
#73=CIRCLE('',#245,9.);
#74=CIRCLE('',#246,8.20710678118653);
#75=CIRCLE('',#248,5.6);
#76=CIRCLE('',#250,6.75);
#77=CIRCLE('',#251,6.75);
#78=CIRCLE('',#252,6.75);
#79=CIRCLE('',#253,6.75);
#80=CIRCLE('',#255,40.4101575327171);
#81=CIRCLE('',#257,40.4101575327171);
#82=CIRCLE('',#259,11.5139807660831);
#83=CIRCLE('',#261,5.9);
#84=CIRCLE('',#263,6.75);
#85=CIRCLE('',#265,7.6);
#86=CIRCLE('',#266,7.6);
#87=CIRCLE('',#268,7.6);
#88=CIRCLE('',#269,7.6);
#89=CIRCLE('',#272,9.);
#90=CIRCLE('',#273,9.);
#91=CIRCLE('',#275,0.75);
#92=VERTEX_POINT('',#350);
#93=VERTEX_POINT('',#352);
#94=VERTEX_POINT('',#355);
#95=VERTEX_POINT('',#358);
#96=VERTEX_POINT('',#359);
#97=VERTEX_POINT('',#362);
#98=VERTEX_POINT('',#364);
#99=VERTEX_POINT('',#368);
#100=VERTEX_POINT('',#369);
#101=VERTEX_POINT('',#382);
#102=VERTEX_POINT('',#383);
#103=VERTEX_POINT('',#396);
#104=VERTEX_POINT('',#407);
#105=VERTEX_POINT('',#411);
#106=VERTEX_POINT('',#414);
#107=VERTEX_POINT('',#415);
#108=VERTEX_POINT('',#420);
#109=VERTEX_POINT('',#421);
#110=VERTEX_POINT('',#428);
#111=VERTEX_POINT('',#429);
#112=EDGE_CURVE('',#92,#92,#73,.T.);
#113=EDGE_CURVE('',#93,#93,#74,.T.);
#114=EDGE_CURVE('',#94,#94,#75,.T.);
#115=EDGE_CURVE('',#95,#96,#76,.T.);
#116=EDGE_CURVE('',#96,#95,#77,.T.);
#117=EDGE_CURVE('',#96,#97,#25,.T.);
#118=EDGE_CURVE('',#97,#98,#78,.T.);
#119=EDGE_CURVE('',#98,#97,#79,.T.);
#120=EDGE_CURVE('',#99,#100,#21,.T.);
#121=EDGE_CURVE('',#100,#99,#80,.T.);
#122=EDGE_CURVE('',#101,#102,#22,.T.);
#123=EDGE_CURVE('',#102,#101,#81,.T.);
#124=EDGE_CURVE('',#102,#103,#23,.T.);
#125=EDGE_CURVE('',#100,#101,#82,.T.);
#126=EDGE_CURVE('',#103,#99,#24,.T.);
#127=EDGE_CURVE('',#94,#104,#26,.T.);
#128=EDGE_CURVE('',#104,#104,#83,.T.);
#129=EDGE_CURVE('',#105,#105,#84,.T.);
#130=EDGE_CURVE('',#106,#107,#85,.T.);
#131=EDGE_CURVE('',#107,#105,#27,.T.);
#132=EDGE_CURVE('',#107,#106,#86,.T.);
#133=EDGE_CURVE('',#108,#109,#87,.T.);
#134=EDGE_CURVE('',#109,#108,#88,.T.);
#135=EDGE_CURVE('',#109,#106,#28,.T.);
#136=EDGE_CURVE('',#108,#98,#29,.T.);
#137=EDGE_CURVE('',#110,#111,#89,.T.);
#138=EDGE_CURVE('',#111,#110,#90,.T.);
#139=EDGE_CURVE('',#111,#92,#30,.T.);
#140=EDGE_CURVE('',#110,#103,#16,.T.);
#141=EDGE_CURVE('',#95,#93,#91,.T.);
#142=ORIENTED_EDGE('',*,*,#112,.F.);
#143=ORIENTED_EDGE('',*,*,#113,.T.);
#144=ORIENTED_EDGE('',*,*,#114,.F.);
#145=ORIENTED_EDGE('',*,*,#115,.F.);
#146=ORIENTED_EDGE('',*,*,#116,.F.);
#147=ORIENTED_EDGE('',*,*,#117,.T.);
#148=ORIENTED_EDGE('',*,*,#118,.T.);
#149=ORIENTED_EDGE('',*,*,#119,.T.);
#150=ORIENTED_EDGE('',*,*,#117,.F.);
#151=ORIENTED_EDGE('',*,*,#120,.F.);
#152=ORIENTED_EDGE('',*,*,#121,.F.);
#153=ORIENTED_EDGE('',*,*,#122,.F.);
#154=ORIENTED_EDGE('',*,*,#123,.F.);
#155=ORIENTED_EDGE('',*,*,#124,.F.);
#156=ORIENTED_EDGE('',*,*,#123,.T.);
#157=ORIENTED_EDGE('',*,*,#125,.F.);
#158=ORIENTED_EDGE('',*,*,#121,.T.);
#159=ORIENTED_EDGE('',*,*,#126,.F.);
#160=ORIENTED_EDGE('',*,*,#114,.T.);
#161=ORIENTED_EDGE('',*,*,#127,.T.);
#162=ORIENTED_EDGE('',*,*,#128,.T.);
#163=ORIENTED_EDGE('',*,*,#127,.F.);
#164=ORIENTED_EDGE('',*,*,#129,.F.);
#165=ORIENTED_EDGE('',*,*,#128,.F.);
#166=ORIENTED_EDGE('',*,*,#130,.T.);
#167=ORIENTED_EDGE('',*,*,#131,.T.);
#168=ORIENTED_EDGE('',*,*,#129,.T.);
#169=ORIENTED_EDGE('',*,*,#131,.F.);
#170=ORIENTED_EDGE('',*,*,#132,.T.);
#171=ORIENTED_EDGE('',*,*,#133,.F.);
#172=ORIENTED_EDGE('',*,*,#134,.F.);
#173=ORIENTED_EDGE('',*,*,#135,.T.);
#174=ORIENTED_EDGE('',*,*,#132,.F.);
#175=ORIENTED_EDGE('',*,*,#130,.F.);
#176=ORIENTED_EDGE('',*,*,#135,.F.);
#177=ORIENTED_EDGE('',*,*,#133,.T.);
#178=ORIENTED_EDGE('',*,*,#134,.T.);
#179=ORIENTED_EDGE('',*,*,#136,.T.);
#180=ORIENTED_EDGE('',*,*,#118,.F.);
#181=ORIENTED_EDGE('',*,*,#119,.F.);
#182=ORIENTED_EDGE('',*,*,#136,.F.);
#183=ORIENTED_EDGE('',*,*,#137,.F.);
#184=ORIENTED_EDGE('',*,*,#138,.F.);
#185=ORIENTED_EDGE('',*,*,#139,.T.);
#186=ORIENTED_EDGE('',*,*,#112,.T.);
#187=ORIENTED_EDGE('',*,*,#139,.F.);
#188=ORIENTED_EDGE('',*,*,#137,.T.);
#189=ORIENTED_EDGE('',*,*,#138,.T.);
#190=ORIENTED_EDGE('',*,*,#140,.T.);
#191=ORIENTED_EDGE('',*,*,#126,.T.);
#192=ORIENTED_EDGE('',*,*,#120,.T.);
#193=ORIENTED_EDGE('',*,*,#125,.T.);
#194=ORIENTED_EDGE('',*,*,#122,.T.);
#195=ORIENTED_EDGE('',*,*,#124,.T.);
#196=ORIENTED_EDGE('',*,*,#140,.F.);
#197=ORIENTED_EDGE('',*,*,#115,.T.);
#198=ORIENTED_EDGE('',*,*,#116,.T.);
#199=ORIENTED_EDGE('',*,*,#141,.T.);
#200=ORIENTED_EDGE('',*,*,#113,.F.);
#201=ORIENTED_EDGE('',*,*,#141,.F.);
#202=PLANE('',#244);
#203=PLANE('',#247);
#204=PLANE('',#254);
#205=PLANE('',#256);
#206=PLANE('',#262);
#207=ADVANCED_FACE('',(#43,#41),#202,.F.);
#208=ADVANCED_FACE('',(#44),#203,.F.);
#209=ADVANCED_FACE('',(#45),#37,.T.);
#210=ADVANCED_FACE('',(#46),#204,.F.);
#211=ADVANCED_FACE('',(#47),#205,.T.);
#212=ADVANCED_FACE('',(#48),#38,.F.);
#213=ADVANCED_FACE('',(#49),#18,.F.);
#214=ADVANCED_FACE('',(#50,#42),#206,.T.);
#215=ADVANCED_FACE('',(#51),#19,.T.);
#216=ADVANCED_FACE('',(#52),#39,.T.);
#217=ADVANCED_FACE('',(#53),#20,.T.);
#218=ADVANCED_FACE('',(#54),#40,.T.);
#219=ADVANCED_FACE('',(#55),#17,.F.);
#220=ADVANCED_FACE('',(#56),#15,.T.);
#221=CLOSED_SHELL('',(#207,#208,#209,#210,#211,#212,#213,#214,#215,#216,
#217,#218,#219,#220));
#222=DERIVED_UNIT_ELEMENT(#225,1.);
#223=DERIVED_UNIT_ELEMENT(#470,-3.);
#224=DIMENSIONAL_EXPONENTS(0.,1.,0.,0.,0.,0.,0.);
#225=(
CONVERSION_BASED_UNIT('gram',#227)
MASS_UNIT()
NAMED_UNIT(#224)
);
#226=(
MASS_UNIT()
NAMED_UNIT(*)
SI_UNIT(.KILO.,.GRAM.)
);
#227=MASS_MEASURE_WITH_UNIT(MASS_MEASURE(0.001),#226);
#228=DERIVED_UNIT((#222,#223));
#229=MEASURE_REPRESENTATION_ITEM('density measure',
POSITIVE_RATIO_MEASURE(1.),#228);
#230=PROPERTY_DEFINITION_REPRESENTATION(#235,#232);
#231=PROPERTY_DEFINITION_REPRESENTATION(#236,#233);
#232=REPRESENTATION('material name',(#234),#467);
#233=REPRESENTATION('density',(#229),#467);
#234=DESCRIPTIVE_REPRESENTATION_ITEM('\X2\04220438043F043E0432044B0435\X0\',
'\X2\04220438043F043E0432044B0435\X0\');
#235=PROPERTY_DEFINITION('material property','material name',#477);
#236=PROPERTY_DEFINITION('material property','density of part',#477);
#237=DATE_TIME_ROLE('creation_date');
#238=APPLIED_DATE_AND_TIME_ASSIGNMENT(#239,#237,(#477));
#239=DATE_AND_TIME(#240,#241);
#240=CALENDAR_DATE(2023,9,10);
#241=LOCAL_TIME(11,32,28.,#242);
#242=COORDINATED_UNIVERSAL_TIME_OFFSET(0,0,.BEHIND.);
#243=AXIS2_PLACEMENT_3D('',#348,#276,#277);
#244=AXIS2_PLACEMENT_3D('',#349,#278,#279);
#245=AXIS2_PLACEMENT_3D('',#351,#280,#281);
#246=AXIS2_PLACEMENT_3D('',#353,#282,#283);
#247=AXIS2_PLACEMENT_3D('',#354,#284,#285);
#248=AXIS2_PLACEMENT_3D('',#356,#286,#287);
#249=AXIS2_PLACEMENT_3D('',#357,#288,#289);
#250=AXIS2_PLACEMENT_3D('',#360,#290,#291);
#251=AXIS2_PLACEMENT_3D('',#361,#292,#293);
#252=AXIS2_PLACEMENT_3D('',#365,#295,#296);
#253=AXIS2_PLACEMENT_3D('',#366,#297,#298);
#254=AXIS2_PLACEMENT_3D('',#367,#299,#300);
#255=AXIS2_PLACEMENT_3D('',#380,#301,#302);
#256=AXIS2_PLACEMENT_3D('',#381,#303,#304);
#257=AXIS2_PLACEMENT_3D('',#394,#305,#306);
#258=AXIS2_PLACEMENT_3D('',#395,#307,#308);
#259=AXIS2_PLACEMENT_3D('',#401,#309,#310);
#260=AXIS2_PLACEMENT_3D('',#406,#311,#312);
#261=AXIS2_PLACEMENT_3D('',#409,#314,#315);
#262=AXIS2_PLACEMENT_3D('',#410,#316,#317);
#263=AXIS2_PLACEMENT_3D('',#412,#318,#319);
#264=AXIS2_PLACEMENT_3D('',#413,#320,#321);
#265=AXIS2_PLACEMENT_3D('',#416,#322,#323);
#266=AXIS2_PLACEMENT_3D('',#418,#325,#326);
#267=AXIS2_PLACEMENT_3D('',#419,#327,#328);
#268=AXIS2_PLACEMENT_3D('',#422,#329,#330);
#269=AXIS2_PLACEMENT_3D('',#423,#331,#332);
#270=AXIS2_PLACEMENT_3D('',#425,#334,#335);
#271=AXIS2_PLACEMENT_3D('',#427,#337,#338);
#272=AXIS2_PLACEMENT_3D('',#430,#339,#340);
#273=AXIS2_PLACEMENT_3D('',#431,#341,#342);
#274=AXIS2_PLACEMENT_3D('',#463,#344,#345);
#275=AXIS2_PLACEMENT_3D('',#464,#346,#347);
#276=DIRECTION('axis',(0.,0.,1.));
#277=DIRECTION('refdir',(1.,0.,0.));
#278=DIRECTION('center_axis',(0.,1.,0.));
#279=DIRECTION('ref_axis',(0.,0.,1.));
#280=DIRECTION('center_axis',(0.,1.,0.));
#281=DIRECTION('ref_axis',(1.,0.,0.));
#282=DIRECTION('center_axis',(-5.44287443648492E-16,1.,0.));
#283=DIRECTION('ref_axis',(0.,0.,-1.));
#284=DIRECTION('center_axis',(0.,1.,0.));
#285=DIRECTION('ref_axis',(0.,0.,1.));
#286=DIRECTION('center_axis',(0.,1.,0.));
#287=DIRECTION('ref_axis',(1.,0.,0.));
#288=DIRECTION('center_axis',(0.,1.,0.));
#289=DIRECTION('ref_axis',(-1.,0.,0.));
#290=DIRECTION('center_axis',(0.,1.,0.));
#291=DIRECTION('ref_axis',(-1.,0.,0.));
#292=DIRECTION('center_axis',(0.,1.,0.));
#293=DIRECTION('ref_axis',(-1.,0.,0.));
#294=DIRECTION('',(0.,-1.,0.));
#295=DIRECTION('center_axis',(0.,1.,0.));
#296=DIRECTION('ref_axis',(1.,0.,0.));
#297=DIRECTION('center_axis',(0.,1.,0.));
#298=DIRECTION('ref_axis',(1.,0.,0.));
#299=DIRECTION('center_axis',(1.,0.,0.));
#300=DIRECTION('ref_axis',(0.,0.,-1.));
#301=DIRECTION('center_axis',(1.,0.,0.));
#302=DIRECTION('ref_axis',(0.,1.,0.));
#303=DIRECTION('center_axis',(1.,0.,0.));
#304=DIRECTION('ref_axis',(0.,0.,-1.));
#305=DIRECTION('center_axis',(-1.,0.,0.));
#306=DIRECTION('ref_axis',(0.,1.,0.));
#307=DIRECTION('center_axis',(1.,0.,0.));
#308=DIRECTION('ref_axis',(0.,-0.999999995631841,-9.34682745538396E-5));
#309=DIRECTION('center_axis',(0.,-0.985042332783983,0.172312514413462));
#310=DIRECTION('ref_axis',(-0.065138201568771,0.171946566089344,0.982950351292714));
#311=DIRECTION('center_axis',(0.,-1.,0.));
#312=DIRECTION('ref_axis',(1.,0.,0.));
#313=DIRECTION('',(-0.707106781186544,-0.707106781186551,-8.65956056235488E-17));
#314=DIRECTION('center_axis',(0.,-1.,0.));
#315=DIRECTION('ref_axis',(1.,0.,0.));
#316=DIRECTION('center_axis',(0.,-1.,0.));
#317=DIRECTION('ref_axis',(0.,0.,-1.));
#318=DIRECTION('center_axis',(0.,1.,0.));
#319=DIRECTION('ref_axis',(1.,0.,0.));
#320=DIRECTION('center_axis',(0.,1.,0.));
#321=DIRECTION('ref_axis',(1.,0.,0.));
#322=DIRECTION('center_axis',(0.,-1.,0.));
#323=DIRECTION('ref_axis',(1.,0.,0.));
#324=DIRECTION('',(0.707106781186547,-0.707106781186548,-8.65956056235493E-17));
#325=DIRECTION('center_axis',(0.,-1.,0.));
#326=DIRECTION('ref_axis',(1.,0.,0.));
#327=DIRECTION('center_axis',(0.,1.,0.));
#328=DIRECTION('ref_axis',(-1.,0.,0.));
#329=DIRECTION('center_axis',(0.,1.,0.));
#330=DIRECTION('ref_axis',(1.,0.,0.));
#331=DIRECTION('center_axis',(0.,1.,0.));
#332=DIRECTION('ref_axis',(1.,0.,0.));
#333=DIRECTION('',(0.,-1.,0.));
#334=DIRECTION('center_axis',(0.,-1.,0.));
#335=DIRECTION('ref_axis',(1.,0.,0.));
#336=DIRECTION('',(0.707106781186547,0.707106781186548,8.65956056235492E-17));
#337=DIRECTION('center_axis',(0.,1.,0.));
#338=DIRECTION('ref_axis',(-1.,0.,0.));
#339=DIRECTION('center_axis',(0.,1.,0.));
#340=DIRECTION('ref_axis',(1.,0.,0.));
#341=DIRECTION('center_axis',(0.,1.,0.));
#342=DIRECTION('ref_axis',(1.,0.,0.));
#343=DIRECTION('',(0.,-1.,0.));
#344=DIRECTION('center_axis',(1.08857488729698E-15,-1.,0.));
#345=DIRECTION('ref_axis',(-1.78873750828092E-13,0.,-1.));
#346=DIRECTION('center_axis',(-1.,-1.08857488729698E-15,1.78779550086609E-13));
#347=DIRECTION('ref_axis',(1.78779550086609E-13,0.,1.));
#348=CARTESIAN_POINT('',(0.,0.,0.));
#349=CARTESIAN_POINT('Origin',(-3.7641313711965,-2.79933718765776,0.));
#350=CARTESIAN_POINT('',(5.2358686288035,-2.79933718765776,-1.10218211923262E-15));
#351=CARTESIAN_POINT('Origin',(-3.7641313711965,-2.79933718765776,0.));
#352=CARTESIAN_POINT('',(-3.7641313711965,-2.79933718765776,8.20710678118653));
#353=CARTESIAN_POINT('Origin',(-3.7641313711965,-2.79933718765776,0.));
#354=CARTESIAN_POINT('Origin',(-3.7641313711965,-8.49933718765776,0.));
#355=CARTESIAN_POINT('',(-9.3641313711965,-8.49933718765776,6.85802207522518E-16));
#356=CARTESIAN_POINT('Origin',(-3.7641313711965,-8.49933718765776,0.));
#357=CARTESIAN_POINT('Origin',(-3.7641313711965,-3.29933718765776,0.));
#358=CARTESIAN_POINT('',(-3.7641313711953,-3.04933718765781,6.75));
#359=CARTESIAN_POINT('',(2.9858686288035,-3.04933718765781,-8.26636589424463E-16));
#360=CARTESIAN_POINT('Origin',(-3.7641313711965,-3.04933718765781,0.));
#361=CARTESIAN_POINT('Origin',(-3.7641313711965,-3.04933718765781,0.));
#362=CARTESIAN_POINT('',(2.9858686288035,-4.29933718765776,-8.26636589424463E-16));
#363=CARTESIAN_POINT('',(2.9858686288035,-3.29933718765776,-8.26636589424463E-16));
#364=CARTESIAN_POINT('',(-10.5141313711965,-4.29933718765776,0.));
#365=CARTESIAN_POINT('Origin',(-3.7641313711965,-4.29933718765776,0.));
#366=CARTESIAN_POINT('Origin',(-3.7641313711965,-4.29933718765776,0.));
#367=CARTESIAN_POINT('Origin',(-3.0141313711965,39.1108203450593,0.));
#368=CARTESIAN_POINT('',(-3.0141313711965,-0.697000438190639,-6.95113201627354));
#369=CARTESIAN_POINT('',(-3.0141313711965,-0.697000438190644,6.95113201627353));
#370=CARTESIAN_POINT('Ctrl Pts',(-3.0141313711965,-0.697000438191685,-6.95113201627328));
#371=CARTESIAN_POINT('Ctrl Pts',(-3.0141313711965,-0.591295015476546,-6.54143034641797));
#372=CARTESIAN_POINT('Ctrl Pts',(-3.0141313711965,-0.494515160520551,-6.12781347456384));
#373=CARTESIAN_POINT('Ctrl Pts',(-3.0141313711965,-0.00203964378700697,
-3.78318303566882));
#374=CARTESIAN_POINT('Ctrl Pts',(-3.0141313711957,0.18949999826972,-1.80939312783901));
#375=CARTESIAN_POINT('Ctrl Pts',(-3.0141313711957,0.189499999512592,1.80939310874558));
#376=CARTESIAN_POINT('Ctrl Pts',(-3.0141313711965,-0.00203964118833208,
3.78318301670696));
#377=CARTESIAN_POINT('Ctrl Pts',(-3.0141313711965,-0.494515157624146,6.12781346219036));
#378=CARTESIAN_POINT('Ctrl Pts',(-3.0141313711965,-0.591295013895111,6.54143034030223));
#379=CARTESIAN_POINT('Ctrl Pts',(-3.0141313711965,-0.697000438186409,6.95113201627463));
#380=CARTESIAN_POINT('Origin',(-3.0141313711965,39.1108203450593,0.));
#381=CARTESIAN_POINT('Origin',(-4.5141313711965,39.1108203450593,0.));
#382=CARTESIAN_POINT('',(-4.5141313711965,-0.697000438190644,6.95113201627353));
#383=CARTESIAN_POINT('',(-4.5141313711965,-0.697000438190639,-6.95113201627354));
#384=CARTESIAN_POINT('Ctrl Pts',(-4.5141313711965,-0.697000438186162,6.95113201627469));
#385=CARTESIAN_POINT('Ctrl Pts',(-4.5141313711965,-0.591295014047334,6.54143034089309));
#386=CARTESIAN_POINT('Ctrl Pts',(-4.5141313711965,-0.494515157903894,6.12781346338676));
#387=CARTESIAN_POINT('Ctrl Pts',(-4.5141313711965,-0.00203964131084207,
3.78318301792214));
#388=CARTESIAN_POINT('Ctrl Pts',(-4.5141313711957,0.189499999564431,1.80939310933696));
#389=CARTESIAN_POINT('Ctrl Pts',(-4.5141313711957,0.189499998321558,-1.80939312843039));
#390=CARTESIAN_POINT('Ctrl Pts',(-4.5141313711965,-0.00203964390950918,
-3.783183036884));
#391=CARTESIAN_POINT('Ctrl Pts',(-4.5141313711965,-0.494515160800289,-6.12781347576022));
#392=CARTESIAN_POINT('Ctrl Pts',(-4.5141313711965,-0.591295015628768,-6.54143034700883));
#393=CARTESIAN_POINT('Ctrl Pts',(-4.5141313711965,-0.697000438191437,-6.95113201627333));
#394=CARTESIAN_POINT('Origin',(-4.5141313711965,39.1108203450593,0.));
#395=CARTESIAN_POINT('Origin',(-3.7641313711965,39.1108203450593,0.));
#396=CARTESIAN_POINT('',(-3.7641313692659,-0.692786916226015,-6.97521905092361));
#397=CARTESIAN_POINT('Ctrl Pts',(-4.51413137119638,-0.697000438191011,-6.95113201627169));
#398=CARTESIAN_POINT('Ctrl Pts',(-4.26453515720136,-0.694195968840516,-6.96719268279842));
#399=CARTESIAN_POINT('Ctrl Pts',(-4.01431751717332,-0.692786916218761,-6.975219050965));
#400=CARTESIAN_POINT('Ctrl Pts',(-3.7641313692659,-0.692786916226015,-6.97521905092361));
#401=CARTESIAN_POINT('Origin',(-3.76413137119642,-2.67678989293744,-4.36653942252543));
#402=CARTESIAN_POINT('Ctrl Pts',(-3.7641313692659,-0.692786916226015,-6.97521905092361));
#403=CARTESIAN_POINT('Ctrl Pts',(-3.5138820634822,-0.692786916233271,-6.97521905088221));
#404=CARTESIAN_POINT('Ctrl Pts',(-3.26366425146123,-0.694196680459977,-6.96718860748811));
#405=CARTESIAN_POINT('Ctrl Pts',(-3.01413137119666,-0.697000438191116,-6.95113201627109));
#406=CARTESIAN_POINT('Origin',(-3.7641313711965,-8.64933718765776,0.));
#407=CARTESIAN_POINT('',(-9.6641313711965,-8.79933718765776,-7.22541611496938E-16));
#408=CARTESIAN_POINT('',(-9.5141313711965,-8.64933718765776,-7.04171909509728E-16));
#409=CARTESIAN_POINT('Origin',(-3.7641313711965,-8.79933718765776,0.));
#410=CARTESIAN_POINT('Origin',(-11.3641313711965,-8.79933718765776,0.));
#411=CARTESIAN_POINT('',(-10.5141313711965,-8.79933718765776,8.26636589424463E-16));
#412=CARTESIAN_POINT('Origin',(-3.7641313711965,-8.79933718765776,0.));
#413=CARTESIAN_POINT('Origin',(-3.7641313711965,-8.37433718765776,0.));
#414=CARTESIAN_POINT('',(3.8358686288035,-7.94933718765776,-9.30731567351989E-16));
#415=CARTESIAN_POINT('',(-11.3641313711965,-7.94933718765776,9.30731567351989E-16));
#416=CARTESIAN_POINT('Origin',(-3.7641313711965,-7.94933718765776,0.));
#417=CARTESIAN_POINT('',(-10.9391313711965,-8.37433718765776,8.78684078388226E-16));
#418=CARTESIAN_POINT('Origin',(-3.7641313711965,-7.94933718765776,0.));
#419=CARTESIAN_POINT('Origin',(-3.7641313711965,-6.54933718765776,0.));
#420=CARTESIAN_POINT('',(-11.3641313711965,-5.14933718765776,9.30731567351989E-16));
#421=CARTESIAN_POINT('',(3.8358686288035,-5.14933718765776,-9.30731567351989E-16));
#422=CARTESIAN_POINT('Origin',(-3.7641313711965,-5.14933718765776,0.));
#423=CARTESIAN_POINT('Origin',(-3.7641313711965,-5.14933718765776,0.));
#424=CARTESIAN_POINT('',(3.8358686288035,-6.54933718765776,-9.30731567351989E-16));
#425=CARTESIAN_POINT('Origin',(-3.7641313711965,-4.72433718765776,0.));
#426=CARTESIAN_POINT('',(-10.9391313711965,-4.72433718765776,-8.78684078388226E-16));
#427=CARTESIAN_POINT('Origin',(-3.7641313711965,-2.04933718765776,0.));
#428=CARTESIAN_POINT('',(-3.7641313711965,-1.29933718765776,-9.));
#429=CARTESIAN_POINT('',(5.2358686288035,-1.29933718765776,-1.10218211923262E-15));
#430=CARTESIAN_POINT('Origin',(-3.7641313711965,-1.29933718765776,0.));
#431=CARTESIAN_POINT('Origin',(-3.7641313711965,-1.29933718765776,0.));
#432=CARTESIAN_POINT('',(5.2358686288035,-2.04933718765776,-1.10218211923262E-15));
#433=CARTESIAN_POINT('Ctrl Pts',(-3.76413136930946,-1.29933719405741,-9.00000001874808));
#434=CARTESIAN_POINT('Ctrl Pts',(-12.7641313790222,-1.29933719341102,-9.00000001874807));
#435=CARTESIAN_POINT('Ctrl Pts',(-12.7641313790222,-1.29933719031997,-9.03537230354966E-9));
#436=CARTESIAN_POINT('Ctrl Pts',(-12.7641313790222,-1.29933718722891,9.00000000067733));
#437=CARTESIAN_POINT('Ctrl Pts',(-3.76413136930946,-1.29933718787531,9.00000000067733));
#438=CARTESIAN_POINT('Ctrl Pts',(5.23586864040324,-1.29933718852171,9.00000000067733));
#439=CARTESIAN_POINT('Ctrl Pts',(5.23586864040324,-1.29933719161276,-9.03537230310565E-9));
#440=CARTESIAN_POINT('Ctrl Pts',(5.23586864040324,-1.29933719470381,-9.00000001874807));
#441=CARTESIAN_POINT('Ctrl Pts',(-3.76413136930946,-1.29933719405741,-9.00000001874808));
#442=CARTESIAN_POINT('Ctrl Pts',(-3.76413136921114,0.0696366427909251,-4.98771044583877));
#443=CARTESIAN_POINT('Ctrl Pts',(-8.75184180554436,0.0696366431491516,-4.98771044583877));
#444=CARTESIAN_POINT('Ctrl Pts',(-8.75184180554436,0.0696366448621808,-9.50554644149493E-9));
#445=CARTESIAN_POINT('Ctrl Pts',(-8.75184180554436,0.0696366465752099,4.98771042682768));
#446=CARTESIAN_POINT('Ctrl Pts',(-3.76413136921114,0.0696366462169834,4.98771042682768));
#447=CARTESIAN_POINT('Ctrl Pts',(1.22357906712208,0.0696366458587569,4.98771042682768));
#448=CARTESIAN_POINT('Ctrl Pts',(1.22357906712208,0.0696366441457277,-9.50554644124886E-9));
#449=CARTESIAN_POINT('Ctrl Pts',(1.22357906712208,0.0696366424326985,-4.98771044583877));
#450=CARTESIAN_POINT('Ctrl Pts',(-3.76413136921114,0.0696366427909251,-4.98771044583877));
#451=CARTESIAN_POINT('Ctrl Pts',(-3.76413136920253,0.189499998715883,-0.750000007552737));
#452=CARTESIAN_POINT('Ctrl Pts',(-4.51413136720856,0.189499998769749,-0.750000007552737));
#453=CARTESIAN_POINT('Ctrl Pts',(-4.51413136720856,0.189499999027339,-9.54671351698423E-9));
#454=CARTESIAN_POINT('Ctrl Pts',(-4.51413136720856,0.189499999284928,0.74999998845931));
#455=CARTESIAN_POINT('Ctrl Pts',(-3.76413136920253,0.189499999231062,0.74999998845931));
#456=CARTESIAN_POINT('Ctrl Pts',(-3.01413137119651,0.189499999177196,0.74999998845931));
#457=CARTESIAN_POINT('Ctrl Pts',(-3.01413137119651,0.189499998919606,-9.54671351694724E-9));
#458=CARTESIAN_POINT('Ctrl Pts',(-3.01413137119651,0.189499998662017,-0.750000007552737));
#459=CARTESIAN_POINT('Ctrl Pts',(-3.76413136920253,0.189499998715883,-0.750000007552737));
#460=CARTESIAN_POINT('Ctrl Pts',(-3.76413136930946,-1.29933718766036,-8.99999999999912));
#461=CARTESIAN_POINT('Ctrl Pts',(-3.76413136928493,-0.957822857183047,-7.99906458877168));
#462=CARTESIAN_POINT('Ctrl Pts',(-3.7641313692659,-0.692786916226013,-6.97521905092361));
#463=CARTESIAN_POINT('Origin',(-3.7641313711965,-3.04933718765781,0.));
#464=CARTESIAN_POINT('Origin',(-3.76413137119516,-3.04933718765781,7.5));
#465=UNCERTAINTY_MEASURE_WITH_UNIT(LENGTH_MEASURE(0.01),#469,
'DISTANCE_ACCURACY_VALUE',
'Maximum model space distance between geometric entities at asserted c
onnectivities');
#466=UNCERTAINTY_MEASURE_WITH_UNIT(LENGTH_MEASURE(0.01),#469,
'DISTANCE_ACCURACY_VALUE',
'Maximum model space distance between geometric entities at asserted c
onnectivities');
#467=(
GEOMETRIC_REPRESENTATION_CONTEXT(3)
GLOBAL_UNCERTAINTY_ASSIGNED_CONTEXT((#465))
GLOBAL_UNIT_ASSIGNED_CONTEXT((#469,#471,#472))
REPRESENTATION_CONTEXT('','3D')
);
#468=(
GEOMETRIC_REPRESENTATION_CONTEXT(3)
GLOBAL_UNCERTAINTY_ASSIGNED_CONTEXT((#466))
GLOBAL_UNIT_ASSIGNED_CONTEXT((#469,#471,#472))
REPRESENTATION_CONTEXT('','3D')
);
#469=(
LENGTH_UNIT()
NAMED_UNIT(*)
SI_UNIT(.MILLI.,.METRE.)
);
#470=(
LENGTH_UNIT()
NAMED_UNIT(*)
SI_UNIT(.CENTI.,.METRE.)
);
#471=(
NAMED_UNIT(*)
PLANE_ANGLE_UNIT()
SI_UNIT($,.RADIAN.)
);
#472=(
NAMED_UNIT(*)
SI_UNIT($,.STERADIAN.)
SOLID_ANGLE_UNIT()
);
#473=SHAPE_DEFINITION_REPRESENTATION(#474,#475);
#474=PRODUCT_DEFINITION_SHAPE('',$,#477);
#475=SHAPE_REPRESENTATION('',(#243),#467);
#476=PRODUCT_DEFINITION_CONTEXT('part definition',#481,'design');
#477=PRODUCT_DEFINITION('\X2\0414043504420430043B044C\X0\19',
'\X2\04170420\X0\1-\X2\041B0420\X0\-PG9 (zeta35031)',#478,#476);
#478=PRODUCT_DEFINITION_FORMATION('',$,#483);
#479=PRODUCT_RELATED_PRODUCT_CATEGORY('\X2\04170420\X0\1-\X2\041B0420\X0\-
PG9 (zeta35031)','\X2\04170420\X0\1-\X2\041B0420\X0\-PG9 (zeta35031)',(#483));
#480=APPLICATION_PROTOCOL_DEFINITION('international standard',
'automotive_design',2009,#481);
#481=APPLICATION_CONTEXT(
'Core Data for Automotive Mechanical Design Process');
#482=PRODUCT_CONTEXT('part definition',#481,'mechanical');
#483=PRODUCT('\X2\0414043504420430043B044C\X0\19',
'\X2\04170420\X0\1-\X2\041B0420\X0\-PG9 (zeta35031)',$,(#482));
#484=PRESENTATION_STYLE_ASSIGNMENT((#485));
#485=SURFACE_STYLE_USAGE(.BOTH.,#488);
#486=SURFACE_STYLE_RENDERING_WITH_PROPERTIES($,#492,(#487));
#487=SURFACE_STYLE_TRANSPARENT(0.);
#488=SURFACE_SIDE_STYLE('',(#489,#486));
#489=SURFACE_STYLE_FILL_AREA(#490);
#490=FILL_AREA_STYLE('',(#491));
#491=FILL_AREA_STYLE_COLOUR('',#492);
#492=COLOUR_RGB('',0.749019607843137,0.749019607843137,0.749019607843137);
ENDSEC;
END-ISO-10303-21;
